  0
SECTION
  2
HEADER
  9
$ACADVER
  1
AC1018
  9
$HANDSEED
  5
FFFFFF
  9
$EXTMAX
 10
7568871.5700000003
 20
5727454.44000000041
 30
1000000.00
  9
$EXTMIN
 10
7568569.08999999985
 20
5727157.8200000003
 30
0.00
  9
$LIMMIN
 10
7568569.08999999985
 20
5727157.8200000003
  9
$LIMMAX
 10
7568871.5700000003
 20
5727454.44000000041
  9
$DIMASZ
 40
2.5
  9
$DIMGAP
 40
0.625
  9
$INSUNITS
 70
6
  9
$DIMEXO
 40
0.625
  9
$DIMTXT
 40
2.5
  9
$DIMSTYLE
  2
Standard
  9
$PLIMMIN
 10
0.0
 20
0.0
  9
$PLIMMAX
 10
210.0
 20
297.0
  9
$DIMEXE
 40
1.25
  9
$TEXTSIZE
 40
2.5
  9
$TEXTSTYLE
  7
Standard
  9
$LWDISPLAY
290
1
  9
$TDCREATE
 40
44323.660084988
  9
$TDUCREATE
 40
44323.576751655
  9
$TDUPDATE
 40
44323.660084988
  9
$TDUUPDATE
 40
44323.576751655
  9
$TDINDWG
 40
0.0
  9
$TDUSRTIMER
 40
0.0
  9
$USRTIMER
 70
1
  0
ENDSEC
  0
SECTION
  2
TABLES
  0
TABLE
  2
VPORT
  5
1
100
AcDbSymbolTable
 70
1
  0
VPORT
  5
2
100
AcDbSymbolTableRecord
100
AcDbViewportTableRecord
  2
*ACTIVE
 70
0
 10
0.0
 20
0.0
 11
1.0
 21
1.0
 12
7568720.33
 22
5727306.13
 13
0.0
 23
0.0
 14
1.0
 24
1.0
 15
0.0
 25
0.0
 16
0.0
 26
0.0
 36
1.0
 17
0.0
 27
0.0
 37
0.0
 40
296.62
 41
1.02
 42
50.0
 43
0.0
 44
0.0
 50
0.0
 51
0.0
 71
0
 72
100
 73
1
 74
1
 75
0
 76
0
 77
0
 78
0
  0
ENDTAB
  0
TABLE
  2
LTYPE
  5
3
100
AcDbSymbolTable
 70
3
  0
LTYPE
  5
4
100
AcDbSymbolTableRecord
100
AcDbLinetypeTableRecord
  2
ByBlock
 70
0
  3

 72
65
 73
0
 40
0.0
  0
LTYPE
  5
5
100
AcDbSymbolTableRecord
100
AcDbLinetypeTableRecord
  2
ByLayer
 70
0
  3

 72
65
 73
0
 40
0.0
  0
LTYPE
  5
6
100
AcDbSymbolTableRecord
100
AcDbLinetypeTableRecord
  2
CONTINUOUS
 70
0
  3
Solid line
 72
65
 73
0
 40
0.0
  0
LTYPE
  5
8
100
AcDbSymbolTableRecord
100
AcDbLinetypeTableRecord
  2
L_0_02
 70
0
  3
Dzialka_ewidencyjna (MLineStyle)
 72
65
 73
0
 40
0.0
  0
LTYPE
  5
9
100
AcDbSymbolTableRecord
100
AcDbLinetypeTableRecord
  2
L_0_03
 70
0
  3
Uzytek_gruntowy
 72
65
 73
2
 40
1.0
 49
0.5
 74
0
 49
-0.5
 74
0
  0
ENDTAB
  0
TABLE
  2
LAYER
  5
A
100
AcDbSymbolTable
 70
3
  0
LAYER
  5
B
100
AcDbSymbolTableRecord
100
AcDbLayerTableRecord
  2
0
 70
0
420
0
  6
CONTINUOUS
370
18
390
C
  0
LAYER
  5
D
100
AcDbSymbolTableRecord
100
AcDbLayerTableRecord
  2
EGB_DzialkaEwidencyjna
 70
0
420
32768
  6
L_0_02
370
18
390
C
  0
LAYER
  5
E
100
AcDbSymbolTableRecord
100
AcDbLayerTableRecord
  2
OS_ObserwacjaOdleglosci
 70
0
420
657673
  6
CONTINUOUS
370
18
390
C
  0
ENDTAB
  0
TABLE
  2
STYLE
  5
F
100
AcDbSymbolTable
 70
3
  0
STYLE
  5
10
100
AcDbSymbolTableRecord
100
AcDbTextStyleTableRecord
  2
STANDARD
 70
0
 40
0.0
 41
1.0
 50
0.0
 71
0
  3
simplex.shx
  4

  0
STYLE
  5
11
100
AcDbSymbolTableRecord
100
AcDbTextStyleTableRecord
  2
STANDARD_ITALIC
 70
0
 40
0.0
 41
1.0
 50
15.0
 71
0
  3
simplex.shx
  4

  0
STYLE
  5
12
100
AcDbSymbolTableRecord
100
AcDbTextStyleTableRecord
  2
Tahoma
 70
0
 40
0.0
 41
1.0
 50
0.0
 71
0
  3
Tahoma.ttf
  4

  0
ENDTAB
  0
TABLE
  2
VIEW
  5
13
100
AcDbSymbolTable
 70
0
  0
ENDTAB
  0
TABLE
  2
UCS
  5
14
100
AcDbSymbolTable
 70
0
  0
ENDTAB
  0
TABLE
  2
APPID
  5
15
100
AcDbSymbolTable
 70
1
  0
APPID
  5
16
100
AcDbSymbolTableRecord
100
AcDbRegAppTableRecord
  2
ACAD
 70
0
  0
ENDTAB
  0
TABLE
  2
DIMSTYLE
  5
17
100
AcDbSymbolTable
 70
1
100
AcDbDimStyleTable
  0
DIMSTYLE
105
18
100
AcDbSymbolTableRecord
100
AcDbDimStyleTableRecord
  2
Standard
 70
0
340
10
  0
ENDTAB
  0
TABLE
  2
BLOCK_RECORD
  5
19
100
AcDbSymbolTable
 70
5
  0
BLOCK_RECORD
  5
1A
100
AcDbSymbolTableRecord
100
AcDbBlockTableRecord
  2
*Model_Space
340
1B
  0
BLOCK_RECORD
  5
1C
100
AcDbSymbolTableRecord
100
AcDbBlockTableRecord
  2
*Paper_Space
340
1D
  0
BLOCK_RECORD
  5
1E
100
AcDbSymbolTableRecord
100
AcDbBlockTableRecord
  2
pikieta
340
1F
  0
BLOCK_RECORD
  5
20
100
AcDbSymbolTableRecord
100
AcDbBlockTableRecord
  2
L_0_02_1
340
21
  0
BLOCK_RECORD
  5
22
100
AcDbSymbolTableRecord
100
AcDbBlockTableRecord
  2
L_0_02_2
340
23
  0
ENDTAB
  0
ENDSEC
  0
SECTION
  2
BLOCKS
  0
BLOCK
  5
24
100
AcDbEntity
  8
0
100
AcDbBlockBegin
  2
*Model_Space
 70
0
 10
0.0
 20
0.0
 30
0.0
  3
*Model_Space
  1

  0
ENDBLK
  5
25
100
AcDbEntity
  8
0
100
AcDbBlockEnd
  0
BLOCK
  5
26
100
AcDbEntity
 67
1
  8
0
100
AcDbBlockBegin
  2
*Paper_Space
 70
0
 10
0.0
 20
0.0
 30
0.0
  3
*Paper_Space
  1

  0
ENDBLK
  5
27
100
AcDbEntity
 67
1
  8
0
100
AcDbBlockEnd
  0
BLOCK
  5
1F
100
AcDbEntity
  8
0
100
AcDbBlockBegin
 62
0
370
13
  2
pikieta
 70
0
 10
0
 20
0
 30
0
  3
pikieta
  0
POINT
  5
28
100
AcDbEntity
  8
0
100
AcDbPoint
 62
0
 10
0.0
 20
0.0
 30
0.00
  0
ENDBLK
  5
29
100
AcDbEntity
  8
0
100
AcDbBlockEnd
  0
BLOCK
  5
21
100
AcDbEntity
  8
0
100
AcDbBlockBegin
 62
0
370
13
  2
L_0_02_1
 70
0
 10
0
 20
0
 30
0
  3
L_0_02_1
  0
POINT
  5
2A
100
AcDbEntity
  8
0
100
AcDbPoint
 62
0
 10
0.0
 20
0.0
 30
0.00
  0
ENDBLK
  5
2B
100
AcDbEntity
  8
0
100
AcDbBlockEnd
  0
BLOCK
  5
23
100
AcDbEntity
  8
0
100
AcDbBlockBegin
 62
0
370
13
  2
L_0_02_2
 70
0
 10
0
 20
0
 30
0
  3
L_0_02_2
  0
POINT
  5
2C
100
AcDbEntity
  8
0
100
AcDbPoint
 62
0
 10
-0.0
 20
-0.0
 30
0.00
  0
ENDBLK
  5
2D
100
AcDbEntity
  8
0
100
AcDbBlockEnd
  0
ENDSEC
  0
SECTION
  2
ENTITIES
  0
INSERT
  5
2E
100
AcDbEntity
  8
EGB_DzialkaEwidencyjna
  6
CONTINUOUS
100
AcDbBlockReference
 66
0
  2
L_0_02_1
 10
7568837.69000000041
 20
5727179.90000000037
 41
0.50
 42
0.50
 43
0.50
 50
211.58
  0
INSERT
  5
2F
100
AcDbEntity
  8
EGB_DzialkaEwidencyjna
  6
CONTINUOUS
100
AcDbBlockReference
 66
0
  2
pikieta
 10
7568824.97499999963
 20
5727172.08499999996
 41
0.50
 42
0.50
 43
0.50
 50
211.58
  0
INSERT
  5
30
100
AcDbEntity
  8
EGB_DzialkaEwidencyjna
  6
CONTINUOUS
100
AcDbBlockReference
 66
0
  2
L_0_02_2
 10
7568812.25999999978
 20
5727164.26999999955
 41
0.50
 42
0.50
 43
0.50
 50
31.58
  0
INSERT
  5
31
100
AcDbEntity
  8
EGB_DzialkaEwidencyjna
  6
CONTINUOUS
100
AcDbBlockReference
 66
0
  2
L_0_02_1
 10
7568812.25999999978
 20
5727164.26999999955
 41
0.50
 42
0.50
 43
0.50
 50
221.62
  0
INSERT
  5
32
100
AcDbEntity
  8
EGB_DzialkaEwidencyjna
  6
CONTINUOUS
100
AcDbBlockReference
 66
0
  2
pikieta
 10
7568808.62999999989
 20
5727161.04499999993
 41
0.50
 42
0.50
 43
0.50
 50
221.62
  0
INSERT
  5
33
100
AcDbEntity
  8
EGB_DzialkaEwidencyjna
  6
CONTINUOUS
100
AcDbBlockReference
 66
0
  2
L_0_02_2
 10
7568805.0
 20
5727157.8200000003
 41
0.50
 42
0.50
 43
0.50
 50
41.62
  0
INSERT
  5
34
100
AcDbEntity
  8
EGB_DzialkaEwidencyjna
  6
CONTINUOUS
100
AcDbBlockReference
 66
0
  2
L_0_02_1
 10
7568805.0
 20
5727157.8200000003
 41
0.50
 42
0.50
 43
0.50
 50
95.14
  0
INSERT
  5
35
100
AcDbEntity
  8
EGB_DzialkaEwidencyjna
  6
CONTINUOUS
100
AcDbBlockReference
 66
0
  2
pikieta
 10
7568792.97499999963
 20
5727291.62000000011
 41
0.50
 42
0.50
 43
0.50
 50
95.14
  0
INSERT
  5
36
100
AcDbEntity
  8
EGB_DzialkaEwidencyjna
  6
CONTINUOUS
100
AcDbBlockReference
 66
0
  2
L_0_02_2
 10
7568780.95000000019
 20
5727425.41999999993
 41
0.50
 42
0.50
 43
0.50
 50
275.14
  0
INSERT
  5
37
100
AcDbEntity
  8
EGB_DzialkaEwidencyjna
  6
CONTINUOUS
100
AcDbBlockReference
 66
0
  2
L_0_02_1
 10
7568780.95000000019
 20
5727425.41999999993
 41
0.50
 42
0.50
 43
0.50
 50
352.33
  0
INSERT
  5
38
100
AcDbEntity
  8
EGB_DzialkaEwidencyjna
  6
CONTINUOUS
100
AcDbBlockReference
 66
0
  2
pikieta
 10
7568781.99000000022
 20
5727425.27999999933
 41
0.50
 42
0.50
 43
0.50
 50
352.33
  0
INSERT
  5
39
100
AcDbEntity
  8
EGB_DzialkaEwidencyjna
  6
CONTINUOUS
100
AcDbBlockReference
 66
0
  2
L_0_02_2
 10
7568783.03000000026
 20
5727425.13999999966
 41
0.50
 42
0.50
 43
0.50
 50
172.33
  0
INSERT
  5
3A
100
AcDbEntity
  8
EGB_DzialkaEwidencyjna
  6
CONTINUOUS
100
AcDbBlockReference
 66
0
  2
L_0_02_1
 10
7568783.03000000026
 20
5727425.13999999966
 41
0.50
 42
0.50
 43
0.50
 50
351.08
  0
INSERT
  5
3B
100
AcDbEntity
  8
EGB_DzialkaEwidencyjna
  6
CONTINUOUS
100
AcDbBlockReference
 66
0
  2
pikieta
 10
7568795.10500000045
 20
5727423.24499999918
 41
0.50
 42
0.50
 43
0.50
 50
351.08
  0
INSERT
  5
3C
100
AcDbEntity
  8
EGB_DzialkaEwidencyjna
  6
CONTINUOUS
100
AcDbBlockReference
 66
0
  2
L_0_02_2
 10
7568807.1799999997
 20
5727421.34999999963
 41
0.50
 42
0.50
 43
0.50
 50
171.08
  0
INSERT
  5
3D
100
AcDbEntity
  8
EGB_DzialkaEwidencyjna
  6
CONTINUOUS
100
AcDbBlockReference
 66
0
  2
L_0_02_1
 10
7568807.1799999997
 20
5727421.34999999963
 41
0.50
 42
0.50
 43
0.50
 50
351.06
  0
INSERT
  5
3E
100
AcDbEntity
  8
EGB_DzialkaEwidencyjna
  6
CONTINUOUS
100
AcDbBlockReference
 66
0
  2
pikieta
 10
7568811.91500000004
 20
5727420.60500000045
 41
0.50
 42
0.50
 43
0.50
 50
351.06
  0
INSERT
  5
3F
100
AcDbEntity
  8
EGB_DzialkaEwidencyjna
  6
CONTINUOUS
100
AcDbBlockReference
 66
0
  2
L_0_02_2
 10
7568816.65000000037
 20
5727419.86000000034
 41
0.50
 42
0.50
 43
0.50
 50
171.06
  0
INSERT
  5
40
100
AcDbEntity
  8
EGB_DzialkaEwidencyjna
  6
CONTINUOUS
100
AcDbBlockReference
 66
0
  2
L_0_02_1
 10
7568816.65000000037
 20
5727419.86000000034
 41
0.50
 42
0.50
 43
0.50
 50
275.01
  0
INSERT
  5
41
100
AcDbEntity
  8
EGB_DzialkaEwidencyjna
  6
CONTINUOUS
100
AcDbBlockReference
 66
0
  2
pikieta
 10
7568827.16999999993
 20
5727299.88000000082
 41
0.50
 42
0.50
 43
0.50
 50
275.01
  0
INSERT
  5
42
100
AcDbEntity
  8
EGB_DzialkaEwidencyjna
  6
CONTINUOUS
100
AcDbBlockReference
 66
0
  2
L_0_02_2
 10
7568837.69000000041
 20
5727179.90000000037
 41
0.50
 42
0.50
 43
0.50
 50
95.01
  0
MLINE
  5
43
100
AcDbEntity
  8
EGB_DzialkaEwidencyjna
  6
L_0_02
370
18
100
AcDbMline
  2
L_0_02
340
7
 40
1.0
 70
1
 71
3
 72
7
 73
1
 10
7568837.69000000041
 20
5727179.90000000037
210
0.0
220
0.0
230
1.0
 11
7568837.69000000041
 21
5727179.90000000037
 12
-0.851945755902
 22
-0.523630049749
 13
0.893320474412
 23
-0.449420215384
 74
3
 41
0.0
 41
0.25
 41
29.59931825114
 75
0
 11
7568812.25999999978
 21
5727164.26999999955
 12
-0.747579731217
 22
-0.664172075199
 13
0.596189180365
 23
-0.80284398311
 74
3
 41
0.0
 41
0.25
 41
9.461338733004
 75
0
 11
7568805.0
 21
5727157.8200000003
 12
-0.089512170292
 22
0.995985728497
 13
-0.368494645571
 23
-0.929629870532
 74
3
 41
0.0
 41
0.25
 41
268.428548640921
 75
0
 11
7568780.95000000019
 21
5727425.41999999993
 12
0.991060661607
 22
-0.133412012259
 13
-0.691315966289
 23
0.722552582691
 74
3
 41
0.0
 41
0.25
 41
1.848761539684
 75
0
 11
7568783.03000000026
 21
5727425.13999999966
 12
0.987908472028
 22
-0.15503822398
 13
0.144233729659
 23
0.989543647965
 74
3
 41
0.0
 41
0.25
 41
24.195584467819
 75
0
 11
7568807.1799999997
 21
5727421.34999999963
 12
0.987847398487
 22
-0.155426887322
 13
0.155232558655
 23
0.987877954372
 74
3
 41
0.0
 41
0.25
 41
9.336500926333
 75
0
 11
7568816.65000000037
 21
5727419.86000000034
 12
0.087346164118
 22
-0.996178020042
 13
0.730940547474
 23
0.682441144758
 74
3
 41
0.0
 41
0.25
 41
240.630640982175
 75
0
  0
POLYLINE
  5
44
100
AcDbEntity
  8
OS_ObserwacjaOdleglosci
  6
CONTINUOUS
370
18
100
AcDb2dPolyline
 66
1
 70
128
  0
VERTEX
  5
45
100
AcDbEntity
  8
OS_ObserwacjaOdleglosci
100
AcDbVertex
100
AcDb2dVertex
 10
7568840.62000000011
 20
5727416.09999999963
  0
VERTEX
  5
46
100
AcDbEntity
  8
OS_ObserwacjaOdleglosci
100
AcDbVertex
100
AcDb2dVertex
 10
7568569.08999999985
 20
5727454.44000000041
  0
SEQEND
  5
47
100
AcDbEntity
  8
OS_ObserwacjaOdleglosci
  0
POLYLINE
  5
48
100
AcDbEntity
  8
OS_ObserwacjaOdleglosci
  6
L_0_03
370
13
100
AcDb2dPolyline
 66
1
 70
128
  0
VERTEX
  5
49
100
AcDbEntity
  8
OS_ObserwacjaOdleglosci
100
AcDbVertex
100
AcDb2dVertex
 10
7568816.65000000037
 20
5727419.86000000034
  0
VERTEX
  5
4A
100
AcDbEntity
  8
OS_ObserwacjaOdleglosci
100
AcDbVertex
100
AcDb2dVertex
 10
7568816.59802429937
 20
5727419.49189978372
  0
SEQEND
  5
4B
100
AcDbEntity
  8
OS_ObserwacjaOdleglosci
  0
POLYLINE
  5
4C
100
AcDbEntity
  8
OS_ObserwacjaOdleglosci
  6
L_0_03
370
13
100
AcDb2dPolyline
 66
1
 70
128
  0
VERTEX
  5
4D
100
AcDbEntity
  8
OS_ObserwacjaOdleglosci
100
AcDbVertex
100
AcDb2dVertex
 10
7568807.1799999997
 20
5727421.34999999963
  0
VERTEX
  5
4E
100
AcDbEntity
  8
OS_ObserwacjaOdleglosci
100
AcDbVertex
100
AcDb2dVertex
 10
7568807.10686554853
 20
5727420.83205014095
  0
SEQEND
  5
4F
100
AcDbEntity
  8
OS_ObserwacjaOdleglosci
  0
POLYLINE
  5
50
100
AcDbEntity
  8
OS_ObserwacjaOdleglosci
  6
L_0_03
370
13
100
AcDb2dPolyline
 66
1
 70
128
  0
VERTEX
  5
51
100
AcDbEntity
  8
OS_ObserwacjaOdleglosci
100
AcDbVertex
100
AcDb2dVertex
 10
7568780.95000000019
 20
5727425.41999999993
  0
VERTEX
  5
52
100
AcDbEntity
  8
OS_ObserwacjaOdleglosci
100
AcDbVertex
100
AcDb2dVertex
 10
7568780.82615126856
 20
5727424.5428835135
  0
SEQEND
  5
53
100
AcDbEntity
  8
OS_ObserwacjaOdleglosci
  0
POLYLINE
  5
54
100
AcDbEntity
  8
OS_ObserwacjaOdleglosci
  6
L_0_03
370
13
100
AcDb2dPolyline
 66
1
 70
128
  0
VERTEX
  5
55
100
AcDbEntity
  8
OS_ObserwacjaOdleglosci
100
AcDbVertex
100
AcDb2dVertex
 10
7568783.03000000026
 20
5727425.13999999966
  0
VERTEX
  5
56
100
AcDbEntity
  8
OS_ObserwacjaOdleglosci
100
AcDbVertex
100
AcDb2dVertex
 10
7568782.90425523557
 20
5727424.24945550878
  0
SEQEND
  5
57
100
AcDbEntity
  8
OS_ObserwacjaOdleglosci
  0
INSERT
  5
58
100
AcDbEntity
  8
OS_ObserwacjaOdleglosci
  6
CONTINUOUS
100
AcDbBlockReference
 66
1
  2
pikieta
 10
7568569.08999999985
 20
5727454.44000000041
 41
0.50
 42
0.50
 43
0.50
 50
0.00
  0
ATTRIB
  5
59
100
AcDbEntity
  8
OS_ObserwacjaOdleglosci
100
AcDbText
 10
7568569.08999999985
 20
5727454.44000000041
 40
0.2
  1
O-10003
 50
0.00
 41
0.62
 51
0.00
  7
STANDARD
100
AcDbAttribute
  2
Nr
 70
0
  0
SEQEND
  5
5A
100
AcDbEntity
  8
OS_ObserwacjaOdleglosci
  0
INSERT
  5
5B
100
AcDbEntity
  8
OS_ObserwacjaOdleglosci
  6
CONTINUOUS
100
AcDbBlockReference
 66
1
  2
pikieta
 10
7568871.5700000003
 20
5727194.15000000037
 41
0.50
 42
0.50
 43
0.50
 50
0.00
  0
ATTRIB
  5
5C
100
AcDbEntity
  8
OS_ObserwacjaOdleglosci
100
AcDbText
 10
7568871.5700000003
 20
5727194.15000000037
 40
0.2
  1
3-2285
 50
0.00
 41
0.62
 51
0.00
  7
STANDARD
100
AcDbAttribute
  2
Nr
 70
0
  0
SEQEND
  5
5D
100
AcDbEntity
  8
OS_ObserwacjaOdleglosci
  0
INSERT
  5
5E
100
AcDbEntity
  8
OS_ObserwacjaOdleglosci
  6
CONTINUOUS
100
AcDbBlockReference
 66
1
  2
pikieta
 10
7568840.62000000011
 20
5727416.09999999963
 41
0.50
 42
0.50
 43
0.50
 50
0.00
  0
ATTRIB
  5
5F
100
AcDbEntity
  8
OS_ObserwacjaOdleglosci
100
AcDbText
 10
7568840.62000000011
 20
5727416.09999999963
 40
0.2
  1
3-6
 50
0.00
 41
0.62
 51
0.00
  7
STANDARD
100
AcDbAttribute
  2
Nr
 70
0
  0
SEQEND
  5
60
100
AcDbEntity
  8
OS_ObserwacjaOdleglosci
  0
INSERT
  5
61
100
AcDbEntity
  8
OS_ObserwacjaOdleglosci
  6
CONTINUOUS
100
AcDbBlockReference
 66
1
  2
pikieta
 10
7568870.45999999996
 20
5727200.04999999981
 41
0.50
 42
0.50
 43
0.50
 50
0.00
  0
ATTRIB
  5
62
100
AcDbEntity
  8
OS_ObserwacjaOdleglosci
100
AcDbText
 10
7568870.45999999996
 20
5727200.04999999981
 40
0.2
  1
3-10
 50
0.00
 41
0.62
 51
0.00
  7
STANDARD
100
AcDbAttribute
  2
Nr
 70
0
  0
SEQEND
  5
63
100
AcDbEntity
  8
OS_ObserwacjaOdleglosci
  0
INSERT
  5
64
100
AcDbEntity
  8
0
  6
CONTINUOUS
100
AcDbBlockReference
 66
1
  2
pikieta
 10
7568837.69000000041
 20
5727179.90000000037
 41
0.50
 42
0.50
 43
0.50
 50
0.00
  0
ATTRIB
  5
65
100
AcDbEntity
  8
0
100
AcDbText
 10
7568837.69000000041
 20
5727179.90000000037
 40
0.2
  1
3-2239
 50
0.00
 41
0.62
 51
0.00
  7
STANDARD
100
AcDbAttribute
  2
Nr
 70
0
  0
SEQEND
  5
66
100
AcDbEntity
  8
0
  0
INSERT
  5
67
100
AcDbEntity
  8
0
  6
CONTINUOUS
100
AcDbBlockReference
 66
1
  2
pikieta
 10
7568816.65000000037
 20
5727419.86000000034
 41
0.50
 42
0.50
 43
0.50
 50
0.00
  0
ATTRIB
  5
68
100
AcDbEntity
  8
0
100
AcDbText
 10
7568816.65000000037
 20
5727419.86000000034
 40
0.2
  1
3-2070
 50
0.00
 41
0.62
 51
0.00
  7
STANDARD
100
AcDbAttribute
  2
Nr
 70
0
  0
SEQEND
  5
69
100
AcDbEntity
  8
0
  0
INSERT
  5
6A
100
AcDbEntity
  8
0
  6
CONTINUOUS
100
AcDbBlockReference
 66
1
  2
pikieta
 10
7568807.1799999997
 20
5727421.34999999963
 41
0.50
 42
0.50
 43
0.50
 50
0.00
  0
ATTRIB
  5
6B
100
AcDbEntity
  8
0
100
AcDbText
 10
7568807.1799999997
 20
5727421.34999999963
 40
0.2
  1
3-22
 50
0.00
 41
0.62
 51
0.00
  7
STANDARD
100
AcDbAttribute
  2
Nr
 70
0
  0
SEQEND
  5
6C
100
AcDbEntity
  8
0
  0
INSERT
  5
6D
100
AcDbEntity
  8
0
  6
CONTINUOUS
100
AcDbBlockReference
 66
1
  2
pikieta
 10
7568783.03000000026
 20
5727425.13999999966
 41
0.50
 42
0.50
 43
0.50
 50
0.00
  0
ATTRIB
  5
6E
100
AcDbEntity
  8
0
100
AcDbText
 10
7568783.03000000026
 20
5727425.13999999966
 40
0.2
  1
3-23
 50
0.00
 41
0.62
 51
0.00
  7
STANDARD
100
AcDbAttribute
  2
Nr
 70
0
  0
SEQEND
  5
6F
100
AcDbEntity
  8
0
  0
INSERT
  5
70
100
AcDbEntity
  8
0
  6
CONTINUOUS
100
AcDbBlockReference
 66
1
  2
pikieta
 10
7568780.95000000019
 20
5727425.41999999993
 41
0.50
 42
0.50
 43
0.50
 50
0.00
  0
ATTRIB
  5
71
100
AcDbEntity
  8
0
100
AcDbText
 10
7568780.95000000019
 20
5727425.41999999993
 40
0.2
  1
3-2067
 50
0.00
 41
0.62
 51
0.00
  7
STANDARD
100
AcDbAttribute
  2
Nr
 70
0
  0
SEQEND
  5
72
100
AcDbEntity
  8
0
  0
INSERT
  5
73
100
AcDbEntity
  8
0
  6
CONTINUOUS
100
AcDbBlockReference
 66
1
  2
pikieta
 10
7568805.0
 20
5727157.8200000003
 41
0.50
 42
0.50
 43
0.50
 50
0.00
  0
ATTRIB
  5
74
100
AcDbEntity
  8
0
100
AcDbText
 10
7568805.0
 20
5727157.8200000003
 40
0.2
  1
3-2237
 50
0.00
 41
0.62
 51
0.00
  7
STANDARD
100
AcDbAttribute
  2
Nr
 70
0
  0
SEQEND
  5
75
100
AcDbEntity
  8
0
  0
INSERT
  5
76
100
AcDbEntity
  8
0
  6
CONTINUOUS
100
AcDbBlockReference
 66
1
  2
pikieta
 10
7568812.25999999978
 20
5727164.26999999955
 41
0.50
 42
0.50
 43
0.50
 50
0.00
  0
ATTRIB
  5
77
100
AcDbEntity
  8
0
100
AcDbText
 10
7568812.25999999978
 20
5727164.26999999955
 40
0.2
  1
3-2240
 50
0.00
 41
0.62
 51
0.00
  7
STANDARD
100
AcDbAttribute
  2
Nr
 70
0
  0
SEQEND
  5
78
100
AcDbEntity
  8
0
  0
TEXT
  5
79
100
AcDbEntity
  8
EGB_DzialkaEwidencyjna
100
AcDbText
 10
7568802.71750000026
 20
5727342.35500000045
 40
1.25
  1
3-306
 50
0.00
 41
0.81
  7
Tahoma
 72
1
 11
7568804.28000000026
 21
5727342.98000000045
100
AcDbText
 73
2
  0
TEXT
  5
7A
100
AcDbEntity
  8
OS_ObserwacjaOdleglosci
100
AcDbText
 10
7568827.10681108013
 20
5727418.40150163416
 40
0.90
  1
-24.26-
 50
-8.90
 41
0.81
  7
Tahoma
 72
1
 11
7568828.61643475294
 21
5727417.86144481692
100
AcDbText
 73
1
  0
TEXT
  5
7B
100
AcDbEntity
  8
OS_ObserwacjaOdleglosci
100
AcDbText
 10
7568817.08248115145
 20
5727416.4992689481
 40
0.90
  1
24.26
 50
-278.00
 41
0.81
  7
Tahoma
 72
2
 11
7568816.94999999739
 21
5727418.78999999817
100
AcDbText
 73
2
  0
TEXT
  5
7C
100
AcDbEntity
  8
OS_ObserwacjaOdleglosci
100
AcDbText
 10
7568815.99211631156
 20
5727418.68313810509
 40
0.90
  1
-0.37-
 50
-278.00
 41
0.81
  7
Tahoma
 72
1
 11
7568816.47708041873
 21
5727419.9782480672
100
AcDbText
 73
1
  0
TEXT
  5
7D
100
AcDbEntity
  8
OS_ObserwacjaOdleglosci
100
AcDbText
 10
7568807.57248115167
 20
5727417.59926894773
 40
0.90
  1
33.85
 50
-278.00
 41
0.81
  7
Tahoma
 72
2
 11
7568807.43999999762
 21
5727419.8899999978
100
AcDbText
 73
2
  0
TEXT
  5
7E
100
AcDbEntity
  8
OS_ObserwacjaOdleglosci
100
AcDbText
 10
7568806.77730083466
 20
5727419.77921433561
 40
0.90
  1
-0.52-
 50
-278.00
 41
0.81
  7
Tahoma
 72
1
 11
7568807.26226494182
 21
5727421.07432429772
100
AcDbText
 73
1
  0
TEXT
  5
7F
100
AcDbEntity
  8
OS_ObserwacjaOdleglosci
100
AcDbText
 10
7568780.61248115171
 20
5727421.87926894799
 40
0.90
  1
60.39
 50
-278.00
 41
0.81
  7
Tahoma
 72
2
 11
7568780.47999999765
 21
5727424.16999999806
100
AcDbText
 73
2
  0
TEXT
  5
80
100
AcDbEntity
  8
OS_ObserwacjaOdleglosci
100
AcDbText
 10
7568778.92211631127
 20
5727424.20313810557
 40
0.90
  1
-0.89-
 50
-278.00
 41
0.81
  7
Tahoma
 72
1
 11
7568779.40708041843
 21
5727425.49824806768
100
AcDbText
 73
1
  0
TEXT
  5
81
100
AcDbEntity
  8
OS_ObserwacjaOdleglosci
100
AcDbText
 10
7568783.18248115201
 20
5727420.93926894851
 40
0.90
  1
58.29
 50
-278.00
 41
0.81
  7
Tahoma
 72
2
 11
7568783.04999999795
 21
5727423.22999999858
100
AcDbText
 73
2
  0
TEXT
  5
82
100
AcDbEntity
  8
OS_ObserwacjaOdleglosci
100
AcDbText
 10
7568782.60099567846
 20
5727423.38291701954
 40
0.90
  1
-0.90-
 50
-278.00
 41
0.81
  7
Tahoma
 72
1
 11
7568783.08595978562
 21
5727424.67802698165
100
AcDbText
 73
1
  0
ENDSEC
  0
SECTION
  2
OBJECTS
  0
DICTIONARY
  5
83
330
0
100
AcDbDictionary
280
0
281
1
  3
ACAD_GROUP
350
84
  3
ACAD_LAYOUT
350
85
  3
ACAD_MLINESTYLE
350
86
  3
ACAD_PLOTSETTINGS
350
87
  3
ACAD_PLOTSTYLENAME
350
88
  0
DICTIONARY
  5
84
102
{ACAD_REACTORS
330
83
102
}
330
83
100
AcDbDictionary
280
0
281
1
  0
DICTIONARY
  5
85
102
{ACAD_REACTORS
330
83
102
}
330
83
100
AcDbDictionary
280
0
281
1
  3
Layout
350
1D
  3
Model
350
1B
  0
DICTIONARY
  5
86
102
{ACAD_REACTORS
330
83
102
}
330
83
100
AcDbDictionary
280
0
281
1
  3
Standard
350
89
  3
L_0_02
350
7
  0
DICTIONARY
  5
87
102
{ACAD_REACTORS
330
83
102
}
330
83
100
AcDbDictionary
280
0
281
1
  0
ACDBDICTIONARYWDFLT
  5
88
102
{ACAD_REACTORS
330
83
102
}
330
83
100
AcDbDictionary
281
1
  3
Normal
350
C
100
AcDbDictionaryWithDefault
340
C
  0
LAYOUT
  5
1D
100
AcDbPlotSettings
  1

  2

  4

  6

 40
0.0
 41
0.0
 42
0.0
 43
0.0
 44
0.0
 45
0.0
 46
0.0
 47
0.0
 48
0.0
 49
0.0
140
0.0
141
0.0
142
1.0
143
1.0
 70
688
 72
1
 73
0
 74
5
  7

 75
0
147
1.0
148
0.0
149
0.0
100
AcDbLayout
  1
Layout
 70
1
 71
1
 10
0.0
 20
0.0
 11
420.0
 21
297.0
 12
0.0
 22
0.0
 32
0.0
 14
100000000000000000000.0
 24
100000000000000000000.0
 34
100000000000000000000.0
 15
-100000000000000000000.0
 25
-100000000000000000000.0
 35
-100000000000000000000.0
146
0.0
 13
0.0
 23
0.0
 33
0.0
 16
1.0
 26
0.0
 36
0.0
 17
0.0
 27
1.0
 37
0.0
 76
0
330
1C
  0
LAYOUT
  5
1B
100
AcDbPlotSettings
  1

  2

  4

  6

 40
0.0
 41
0.0
 42
0.0
 43
0.0
 44
0.0
 45
0.0
 46
0.0
 47
0.0
 48
0.0
 49
0.0
140
0.0
141
0.0
142
1.0
143
1.0
 70
1712
 72
1
 73
0
 74
0
  7

 75
0
147
1.0
148
0.0
149
0.0
100
AcDbLayout
  1
Model
 70
1
 71
0
 10
0.0
 20
0.0
 11
12.0
 21
9.0
 12
0.0
 22
0.0
 32
0.0
 14
0.0
 24
0.0
 34
0.0
 15
0.0
 25
0.0
 35
0.0
146
0.0
 13
0.0
 23
0.0
 33
0.0
 16
1.0
 26
0.0
 36
0.0
 17
0.0
 27
1.0
 37
0.0
 76
0
330
1A
  0
MLINESTYLE
  5
89
102
{ACAD_REACTORS
330
86
102
}
330
86
100
AcDbMlineStyle
  2
Standard
 70
0
  3

 62
256
 51
90.0
 52
90.0
  2
Standard
 71
2
 49
0.5
 62
256
  6
ByLayer
 49
-0.5
 62
256
  6
ByLayer
  0
MLINESTYLE
  5
7
100
AcDbMlineStyle
  2
L_0_02
 70
0
  3

 51
90.0
 52
90.0
 71
1
 49
0.0
 62
256
  6
CONTINUOUS
  0
ACDBPLACEHOLDER
  5
C
  0
ENDSEC
  0
EOF
